返回列表 发帖

[爬谱] spitz《若叶》吉他谱

自爬了<若叶> 如有不足 多多指正

节奏多听听原曲 和以前那些歌一样 因为谱较简单 所以节奏多靠自己把握

spitz<若叶>


变调夹5品起

前奏

-0---0--1---1--0---0-----0----
---1------1------1----3-3---3--
------------------------------
------------------------------
------------------------------
------------------------------

-0---0--1---1--0---0-----0----
---1------1------1----3-3---3--
------------------------------
------------------------------
------------------------------
------------------------------

C~

(分解和弦)

   C          Am              Em    Am    f    G
優しい光に 照らされながら  あたり前のように歩いてた

   C          Am             Em     Am    f    G
扉の向こう 目を凝らしても 深い霧で何も見えなかった

--------------0--------------
-----1---3`-----------------
---0---0---0---0------------
----------------------------
-3--------------------------
----------------------------

Am     Em       F      Em
ずっと続くんだと 思い込んでいたけど

Am     Em        F        G ~    (转为扫弦)G
指のすき間から こぼれていった

C           Em           F          G      C
思い出せる いろんなこと 花咲き誇る頃に 君の笑顔で晴れた

Am  F  Em  Am   F    G
街の空 涼しい風 鳥の歌声

C           Em           F          G      C
並んで感じていた つなぐ糸の細さに  気づかぬままで

Am  F  Em  Am   F    G
忘れたことも 忘れるほどの


再次此节奏

转到间奏

-8-----------3-0---010-----8----------3-0--
---1--0-1-3------------310---1--0-1-3------
-----------------------------------------
-----------------------------------------
-----------------------------------------
-----------------------------------------

-0-1-3-1---1-5--7-8-2---2-8-10-8-10-12--12-13-12-15----
----------1-------------3--------------------------------
-------------------------------------------------------
-------------------------------------------------------
-------------------------------------------------------
-------------------------------------------------------

结束 谢谢!
1

评分人数

    • odawnw: 感谢分享!稻穗 + 2 束

lz这个是自己写出来的吗。。。。。。
求达人录音!

TOP

回复 2# odawnw


发了一小段

TOP

Am     Em       F      Em
ずっと続くんだと 思い込んでいたけど

这部分后一个Em 可以试试用大E  001220

Am  F  Em  Am   F    G
街の空 涼しい風 鳥の歌声   这里我参照大叔的MV排成下面的

Am   G    Dm      F    G
街の空 涼しい風 鳥の歌声     但其实Dm哪个草野叔不是用Dm的,是用哪个我需要温习温习和弦才知道

哈哈 交流一下  大家学习
爱生活 爱Spitz

TOP

回复 4# benyao83


    仁兄言之有理 共同交流 共同进步

TOP

前奏應該是   Am7為底

-------------------------------------------
----1--------1--------1------------------
-------0--------0---------0--------------
--2-------3--------2---------0--0--2--0
-------------------------------------------
-------------------------------------------
                                                              C                                                  開始
-------------------------------------------------------------------------------------
----1--------1--------1--------------------1---------------------------------------
-------0--------0---------0---------------------------------------------------------
--2-------3--------2---------0--0--2--0---2---------------------------------------
--------------------------------------------3---------------------------0--3--2--3
--------------------------------------------------------------------------------------

看MV草野叔手彈出來的    音準的話自己彈也沒錯

有誤請指教

另外上面的Am是012200?        不過我個人適用Am7 010200

Am     Em       F      Em
ずっと続くんだと 思い込んでいたけど

這個部份的Em我個人道是用Em7 001020     聽起來也算滿順的

C           Em           F          G      C
思い出せる いろんなこと 花咲き誇る頃に 君の笑顔で晴れた

最後面的C我後面是改成2拍的G

Am  F  Em  Am   F    G
街の空 涼しい風 鳥の歌声

至於這邊的話  benyao83 的Dm應該沒錯   雖然我用的是D  (總是怪怪的)

TOP

哈哈 其实每个人乐感不一样  只要舒服就行  吉他千变万化,和弦没有一成不变的。

我也试过大家的意见 其实也有合适的理由   大家继续。。。。

呵呵  并祝各位SFANS 新年快乐
爱生活 爱Spitz

TOP

楼上也弹吉他哇?
去群里吧,欢迎~
どれくらいの速度で 今 未来に向かって歩いているんだろう?

TOP

回复 8# st.jimmy


    早就在群里面啦 be_en 就是我啦 哈哈哈
爱生活 爱Spitz

TOP

原来如此...
どれくらいの速度で 今 未来に向かって歩いているんだろう?

TOP

返回列表