返回列表 发帖

[爬谱] spitz《猫になりたい》吉他谱

自爬的<猫 になりたい>

不同于原调 多多批评指正

spitz<猫 になりたい>

---------0--3--------3--------1--0------------
----1--2------1-0-1----1-0-1-------3-1-0------
-0-----------------------------------------2-0--
----------------------------------------------
----------------------------------------------
----------------------------------------------

---------0--3--8--10-8--7-8-7`8`7--8----------
----1--2--------------------------------------
-0--------------------------------------------
----------------------------------------------
----------------------------------------------
----------------------------------------------


G         Em              C      D     G
灯  りを消したまま話    を続  けたら

G         Em            C      D       G
ガラスの向こう側  で星  がひとつ消えた

G         Em          C      D    G
からまわりしながら通  りを駆け抜けて

G         Em              C      D     G
砕  けるその時  は君  の名前  だけ呼ぶよ

Em           D            Bm              G
広  すぎる霊園    のそばの このアパートは薄  ぐもり

Em          D        Bm
暖    かい幻      を見てた

G           Em    C           D
猫  になりたい 君  の腕  の中 

Bm           Em       C       D
寂    しい夜  が終わるまでここにいたいよ

G           Em    C          D
猫  になりたい 言葉  ははかない  

Bm          Em       C   D   G
消えないようにキズつけてあげるよ

再次此节奏

结束 谢谢!
1

评分人数

那啥……论坛的吉他达人们,该你们了!

TOP

貌似不对啊。

TOP

返回列表